吉他中国武宁艺术节

吉他中国论坛

 找回密码
 注册
吉他中国广告服务
搜索
查看: 4524|回复: 8

[诚心求谱] 谁有BRYAN ADAMS的HERE I AM?

[复制链接]
发表于 2006-5-1 17:58:22 | 显示全部楼层 |阅读模式
网上BRYAN ADAMS的谱子好象很少:(
发表于 2006-5-4 20:04:02 | 显示全部楼层

It's only love

It's only Love
Bryan Adams

main riff: Dsus Csus9 Asus4 Bb F


-0-0--0-1----------1-1-(1)(1)-1-1-1
-3-3--3-3----------1-1-(1)(1)-1-1-1
-2-0--2-3----------2-2-(2)(2)-2-2-2
-0-0--2-3------3^5-3-3-(3)(3)-3-3-3
---3--0-1--1/3-----3-3-(3)(3)-3-3-3
-------------------1-1-(1)(1)-1-1-1
                  

Bridge:

C D Bb 2x

solo is from Dm = F
发表于 2006-5-4 20:05:42 | 显示全部楼层

Run To you

Now Run to You: (see note on key at the end)

The distinctive riff through the verse is:

||-----------------|-----------------||
||-----------------|-----------------|| with plenty of reverb (and
||-----------------|-----------------|| probably other effects, but
||-----0-----0-----|-----0-----0-----|| I ain't got any, so I don't
||---2-----2---2---|---2-----4---4---|| know what!)
||-0-----0-------0-|-3-----5-------5-||
  
The transition into the chorus is |C|C|D|D| with appropriate strumming
The chorus chords are ||Em  G  D|    A   ||  ""      ""        ""
(this repeats until it finally finishes on the D)

The lead bit in the middle of the song is:

||------------|-----|-----------|-----|-----------|-----|-----------|-----||
||-9/10-9-----|-----|-7/8-7-----|-----|-5/6-5-----|-----|-7/8-7-----|-----||
||--------9---|-----|-------7---|-----|-------5---|-----|-------7---|-----||
||----------9-|-----|---------7-|-----|---------5-|-----|---------7-|-----||
||------------|-----|-----------|-----|-----------|-----|-----------|-----||
||------------|-----|-----------|-----|-----------|-----|-----------|-----||
played through twice.
发表于 2006-5-4 20:06:44 | 显示全部楼层

SUmmer of 69

Summer of '69 - Bryan Adams

The verses are just D A D A ... as many as needed  with the change
occurring on every second bar. There is an additional two bars of D
at the start as well.
The way to play it is something like this:
     
D.   .   .   .     .   .   .   .     D.   .   .   .     .   .   .   .
|-----------------|-----------------||-----------------|-----------------|
|-3-----3---------|-----------------||-3-----3---------|-------------3---|
|-2---2-2---2-2-2-|-2-2-2-2-2-2-----||-2---2-2---2-2-2-|-2-2-2-2-2-2-2---|
|-0---0-0---0-0-0-|-0-0-0-0-0-0-0---||-0---0-0---0-0-0-|-0-0-0-0-0-0-0---|
|-----------------|-------------0---||-----------------|-----------------|
|-----------------|-----------------||-----------------|-----------------|
A.   .   .   .     .   .   .   .
|-----------------|-----------------||
|-----------------|-----------------||  repeat last 4 bars throughout
|-2-----2---------|-------------2---||  verses.
|-2---2-2---2-2-2-|-2-2-2-2-2-2-2---||
|-0---0-0---0-0-0-|-0-0-0-0-0-0-0---||
|-----------------|-----------------||
The dots show the beat.
Use moderate amounts of overdrive, and mute the 2's with your palm to get
the distinctive percussive sound.               0

The Chorus chords are |Bm|A|D|G|Bm|A|D|G|Bm|A| (I use B instead of Bm)
use standard open A,D, and G and a barred A shape for B.

The keyboard riff is sort of an arpegiated D and A ie.
D                                    A
|-0-----2-----3---|---2-----0---2---|-----------------|------------------|
|---3-----3-----3-|-----3-----------|-0-----2-----3---|---2-----0----2---|
|-----2-----2-----|-2-----2---2---2-|---2-----2-----3-|-----2------------|
|-----------------|-----------------|-----2-----2-----|-2-----2----2---2-|
|-----------------|-----------------|-----------------|------------------|
|-----------------|-----------------|-----------------|------------------|

This sounds a bit messy with overdrive, so play it clean, or (even easier)
just play the melody part (which is mainly what you hear on the CD anyway)

e|-0-----2-----3---|---2-----0---2---|-----------------|------------------|
b|-----------------|-----------------|-0-----2-----3---|---2-----0---2----|

For the key change after the second chorus, the chords are:
|F|Bb|C|Bb|F|Bb|C|C|  again use the barred A shape for Bb and C.
That's about all for Summer of '69
发表于 2006-5-4 20:08:29 | 显示全部楼层

Everything i do

Song: Every Thing I do, guitar solo
Tuning: E,A,D,G,B,E

Key:
P: pull off
H: hammer on
^: Bend
~: Vibrate

First Comes in with piano
Solo

E----------------------------------------------------|
B----------------------------------------------------|
G-7-~h9--p9-7----------~7----------------9-h12-------|
D-------------10-7-~10---------7-h10-~10-------10-10-|
A----------------------------------------------------|
E----------------------------------------------------|

E-------------8--------------------------------------|
B-^8hold-(10)---10-10-8-10-8-10----------------------|
G-------------------------------7-h9--9-9-9-7-5------|
D----------------------------------------------------|
A----------------------------------------------------|
E----------------------------------------------------|
 楼主| 发表于 2006-5-5 23:42:59 | 显示全部楼层
天啊!这些谱子有点奇怪呀?
发表于 2006-5-6 01:06:56 | 显示全部楼层

回复 #6 gang_bang 的帖子

it's Guitar tabs not chords
 楼主| 发表于 2006-5-10 20:36:58 | 显示全部楼层
哦啊!!!!!!!!
发表于 2019-5-20 00:00:26 | 显示全部楼层
求个向样的HERE I AM啊,谁有啊?
您需要登录后才可以回帖 登录 | 注册

本版积分规则

QQ|小黑屋|手机版|Archiver|吉他中国 ( 京公网安备11010102001104号 )

GMT+8, 2019-12-12 09:14

Powered by Discuz! X3.3

© 2001-2017 Comsenz Inc.

快速回复 返回顶部 返回列表